Единый многоканальный телефон

+7 (495) 989 48 47

круглосуточно

бесплатная консультация
Форум

Медвет - сеть ветиринарных центров

Диабет у кота - Нефтеюганск

На вопросы отвечает Кусенкова Наталия Юрьевна

Модераторы: tv_vl, Tatiana M

loginza1iiaQgakGL0ilUFYaNhUum
Сообщения: 93
Зарегистрирован: Сб апр 02, 2016 5:43 pm
Контактная информация:

Сообщение: #17140 loginza1iiaQgakGL0ilUFYaNhUum
Ср апр 27, 2016 7:43 pm

Наталия Юрьевна,подскажите,пожалуйста по замерам.
Мне дальше повышаться по протоколу,или может пропустила где-то снижение,и у нас ЭС один переходящий в другой.Сейчас место укола бочок между лапками.

loginza1iiaQgakGL0ilUFYaNhUum
Сообщения: 93
Зарегистрирован: Сб апр 02, 2016 5:43 pm
Контактная информация:

Сообщение: #17141 loginza1iiaQgakGL0ilUFYaNhUum
Ср апр 27, 2016 7:43 pm

1.12.2014
2----------22.0
6----------19.7
8.30-------23.8-------0.75ЕД+150 корм
12---------20.1
14---------14.7
15---------9.3
18---------3.3 (ложка корма)
20.30-------6.7-------0.5ЕД+150 корм
22----------23.4------доколола 0.25
23----------21.8
24----------21.6

2.12.2014
3-----------21.4
20.30-------20.8-------0.5ЕД+150 корм
10----------21.8--------доколола 0.25
13----------20.3
15---------19.8
20.30--------19.2-----0.75ЕД+150 корм
23------------22.2------доколола 0.25

3.12.2014
0.30-----------21.4
2.30----------20.2
8.30-----------15.9-----0.5ЕД+150 корм
11------------17.3
12------------19.3-----доколола 0.25
15------------20.5
18------------18.4
20------------16.4------0.5ЕД+150 корм
22------------18.6
4.12.2014
1-------------18.8
3-------------16.9
6--------------16.2
8.30-----------20.1--------0.5ЕД+150 корм
12--------------22.2
16-------------20.3
20------------20.4--------0.5ЕД+150 корм
24-------------21.4
5.12.2014
3--------------22.7
8---------------22.3-----------0.5ЕД+150 корм
12--------------21.5
15--------------21.7
20---------------22.0---------0.5ЕД+150 корм
22---------------21.7---------доколола 0, 25
24---------------19, 7
6.12.2014
3----------------18, 7
8-----------------19.8-----------0.5ЕД+150 корм
11----------------21.9 доколола 0, 25
15-------------18, 4
17.30-----------18, 5
19.30-----------16, 9--------0, 75+150 корм
22-------------20, 1------доколола 0, 25

7.12.2014
1---------------22.6
3--------------22.8
8--------------23.7--------0.75ЕД+150 корм
12--------------21.0--------доколола 0.25
14--------------15.8
20.30----------12(второе ухо 11.3)-----------0.75+150 корм.Новое место укола.
23.30-----------21.7------------доколола 0.25

8.12.2014
4---------------21.3
8.30-------------21.6---------1ЕД+150 корм
12--------------21.1
15---------------16.7
17---------------12.4
20----------------8.4--------1ЕД+150 корм
22.30--------------21.5

9.12.2014
3-----------------24.5
8-----------------24.9--------1ЕД+150 корм
13----------------23.9
20.30--------------22.0--------1.25 ЕД+150 корм
23.30--------------24.2

10.12.2014
8-------------22.1-----------1ЕД+150 корм
12-------------18.8
14.30----------14.1
17-------------6.5
20.30-------------4.6-----------1ЕД+150 корм(крутился, надеюсь что поставила норм)
23.30-----------17.0 ----доколола 0.25

11.12.2014
1---------------15.3
4---------------11.1
8---------------12.2--------1ЕД+150 корм
10--------------20.8--------0.25ЕД
14-------------19.9
20--------------11.3--------1ЕД+150 корм
22---------------16.7-------0.25ЕД
24---------------16.2

12.12.2014
8--------------6.3---------1ЕД+150 корм
11------------20.4----------0.25
14-------------20.2
20.30-----------10.9--------1.25+150 корм
23--------------16.1

13.12.2014
4--------------15.7
8---------------19.7--------1.25+150 корм
14---------------24.4
17---------------24.0
20.30------------23.2--------1.25+150 корм
24---------------20.9

14.12.2014
8---------------9.3---------1.25+150 корм
10--------------20.1
14--------------22.4
20.30-----------21.4---------1.5+150 корм
22.30------------22.6

15.12.2014
3---------------19.4
8---------------20.9---------1.5+150 корм
11--------------21.8
16--------------21.6
21--------------18.6---------1.5+150 корм(новый инсулин)
24--------------21.5

16.12.2014
4---------------18.8
8----------------12.9--------1.5+150 корм
13.30------------9.1
15----------------11.3
17---------------12.8
20---------------15.5---------1.5+150 корм
24---------------23.1

17.12.2014
8-----------------20.6--------1.5+150 корм
12----------------22.6
17----------------21.3
20-----------------18.8--------1.5+150 корм
22-----------------18.9
24------------------18.8

18.12.2014
3-------------------19.5
8-------------------16.7-----------1.5+150 корм
12------------------22.8------------0.25
15------------------22.7
20------------------17.8------------1.5+150 корм
24------------------24.3----------0.25

19.12.2014
8------------------20.8----------1.5+150 корм
10-----------------23.4----------0.25
15-----------------21.5
20.30--------------8.6-----------1.5+150 корм
22.30--------------8.9

20.12.2014
1------------------5.1
3-----------------4.0----------20-30гр корм
5-----------------6.3
8-----------------8.4--------1.5+150 корм
10----------------13.8
15-----------------21.8
20.30---------------13.8--------1.5+150 корм
22-----------------15.6---------0.25

21.12.2014
1-------------------17.4
8--------------------3.2-------1.25+150 корм
11.30----------------11.8-------0.25
14-------------------10.8
20-------------------5.8-------1.5+150 корм
22------------------18---------0.25
3.12.2014
8-----------------20.8--------1.75+150 корм
14----------------23.1
20.30-------------17.5-------1.75+150 корм
22.30-------------21.5

24.12.2014
8-----------------20.2--------1.75+150 корм
15---------------22.6
20.30-------------19.7---------1.75+150 корм
23---------------22.7

25.12.2014
8-----------------18.2----------1.75+150 корм
15----------------22.3
20.30-------------15.2----------2.0+150 корм
24----------------18.9

26.12.2014
3----------------18.7
8----------------15.5-----------2.0+150 корм
10---------------16.4
15---------------16.4
20.30------------3.2-----------1.75+150 корм
22.30------------3.8-------1 ложка корма
24---------------3.6-------20-30 гр корма

27.12.2014
2---------------3.9
4---------------4.5
6---------------5.0
8---------------5.2-------1.5+150 корм
10---------------8.6-------0.25
13---------------12.1
17---------------9, 9
20.30------------6.7--------1.75+150 корм
23--------------16.4-----------0.25

28.12.2014
2--------------15.5
8--------------3.8---------1.75+150 корм
10-------------7.9----------0.25
14--------------10, 9
17--------------10.4
20--------------7.8---------2.0+150 корм
24--------------13.7

29.12.2014
8--------------9.2---------2.0+150 корм
12------------17.3
17------------17.0
20.30----------16.7--------2.0+150 корм
23-------------16.8

30.12.2014
8--------------3.9-------2.0+150 корм
10-------------10.3
14--------------11.3
20---------------6.1
24---------------6.8-------2.0+150 корм
31.12.2014
3-------------2.5--------30 гр корм
5-------------7.3
8-------------9.4---------1.75+150 корм
16------------11, 3
20------------13, 7--------1, 75+150 корм
22, 30---------14, 0

1.01.2015
2-------------6.9
5-------------5.9
8-------------5.2------1, 75+150 корм ( корм за один раз не съедает, сперва 100 и еще 50 ест до 13-14 часов)
13------------6.9
17------------5.7
20------------4.3-------1, 75+100 корм
22------------8.3

2.01.2015
2-------------4.1-------40 гр корм
5-------------8.2
8-------------9.3-------1.75+100 корм
13-----------12.9-------30 корм
20------------5.2-------1, 75+100 корм
24------------4.2

3.01.2015
2-------------2.5------20 гр сушка
4-------------4.3
8-------------4.4-------1, 5+100 корм
12------------2.6-------20 гр сушка
15------------4.6
20------------2.8-------1, 25+100 корм
23------------2.3-------20 гр сушка

4.01.2015
2-------------3.2------10 гр сушка
8-------------7.7------1, 25+100 корм
10------------7.3
15------------8.1
20------------3.3-------1, 0+100 корм
24------------3.3-------20 корм

5.01.2015
8-------------2, 3-------0, 75+100 корм
10------------4.8
15------------2.8-------30 гр корм
20------------2.6-------0.5+100 корм
22------------2.7
24------------2.1------20-30 сушка

6.01.2015
3---------------3.9
8---------------3.7-------0.25+100 корм
10--------------4.3
15--------------3, 0
17--------------2, 6--------20 гр сушка
20--------------5, 5-------0, 25+100 корм
22--------------4, 7

7.01.2015
1--------------3.6
5--------------5.6
8--------------4.0----------0.25+100 корм
14-------------2.7
20-------------2.4----------0.25+100 корм
22-------------2.7

8.01.2015
8--------------2.4----------0.25+100 корм
10-------------2.7----------20 гр корм
14-------------3.5
20-------------2.4----------без инсулина+100 корм
24-------------2.9
9.01.2015
8-------------2.8----------0.25+100 корм
15------------2, 6
20------------2, 3
24------------2.6

Без инсулина.
Корм РК диабетик влажный 100 гр на кормление, иногда докорм сушка

10.01.2015
8-------------2.6
13------------2.2
20------------2.7
24------------2.8

11.01.2015
8-------------2.8
14------------2.7
16------------2.1
20------------2.9
24------------2.5

12.01.2015.
8------------2.6
20-----------2.8
24-----------2.5

13.01.2015
8------------2.4
20-----------2.8
24-----------2.7

14.01.2015
8------------2.6
20-----------2.4-----сушка по норме

15.01.2015
8------------3.3
20-----------2.6

16.01.2015
8-------------3.1
16------------2.9
20------------2.8
23------------2.1

17.01.2015
9------------2.4-----сушка
14-----------2.3
18-----------3.3
20-----------2.8

18.01.2015
9------------2.3------корм РС ньютрид эдалт влажка 100+50 гр(выпросил)

Nataliya-Kusenkova
Сообщения: 468
Зарегистрирован: Сб апр 02, 2016 5:42 pm
Контактная информация:

Сообщение: #17142 Nataliya-Kusenkova
Ср апр 27, 2016 7:43 pm

Добрый день! Посмотрите еще пару дней 1, 5 ед - и если не станет ровнее - думаю стоит повышаться дальше...

loginza1iiaQgakGL0ilUFYaNhUum
Сообщения: 93
Зарегистрирован: Сб апр 02, 2016 5:43 pm
Контактная информация:

Сообщение: #17143 loginza1iiaQgakGL0ilUFYaNhUum
Ср апр 27, 2016 7:43 pm

Добрый день Наталия Юрьевна.
С 9 января мы без инсулина.
Сегодня пересдали кровь.К сожалению сделать УЗИ пока так и не появилась возможность.
Посмотрите,пожалуйста, наши результаты.Из рекомендаций очного доктора только гептрал по 1/2 табл 1 месяц.
Кот активный,аппетит хороший.

Анализ крови от18.01.2015
Общий.
Лейкоциты 7.7 (5.5-18.5)
Лимфоциты 45 (20-55)
Моноциты 8 ( 1-4)
Эритроциты 9.9 (5.3-10.0)
Гематокрит 42.5 ( 26-48)
Гемоглобин 138 (80-150)
Тромбоциты 457 (300-600)
Палочкоядерные нейтрофилы 2 ( 0-3)
Сегментоядерные нейтрофилы 43 ( 35-73)
Эозинофилы 2 (0-4)

Биохимия.
Общий белок 76.8 (54-77)
Глюкоза 4.24 (3.0-6.3)
Мочевина 11 (5.4-12.1)
Креатинин 106 (70-165)
Билирубин общий 6.8 (3.0-12)
ALT 91.5 (19-79)
AST 32.1 (9-29)
Калий 5.13 (4.1-5.4)
Натрий 143 (143-145)
Хлориды 126.9 (107-122)

loginza1iiaQgakGL0ilUFYaNhUum
Сообщения: 93
Зарегистрирован: Сб апр 02, 2016 5:43 pm
Контактная информация:

Сообщение: #17144 loginza1iiaQgakGL0ilUFYaNhUum
Ср апр 27, 2016 7:43 pm

Наталия Юрьевна,у меня есть еще вопрос по глюкозе.
С отмены инсулина глюкоза держится низко,только на сушке в пределах 2.8-3.3
Сегодня вместо диабетика обычные паучи для кастрированных РС. Сушка диабетик роял канин.
Кот активный,бегает,играет.Вес 6.4 кг
Переношу замеры с отмены инсулина.
Без инсулина.
Корм РК диабетик влажный 100 гр на кормление, иногда докорм сушка

10.01.2015
8-------------2.6
13------------2.2
20------------2.7
24------------2.8

11.01.2015
8-------------2.8
14------------2.7
16------------2.1
20------------2.9
24------------2.5

12.01.2015.
8------------2.6
20-----------2.8
24-----------2.5

13.01.2015
8------------2.4
20-----------2.8
24-----------2.7

14.01.2015
8------------2.6
20-----------2.4-----сушка по норме

15.01.2015
8------------3.3
20-----------2.6

16.01.2015
8-------------3.1
16------------2.9
20------------2.8
23------------2.1

17.01.2015
9------------2.4-----сушка
14-----------2.3
18-----------3.3
20-----------2.8

18.01.2015
9------------2.3
10.30-----100 корм ньютрид эдалт влажный
12-------еще 50 корм
16--------1.9(второе ухо 2.1)------ 15 гр сушка Замерила себе-5.6.
19---------2.3------сушка по норме
22---------3.6
Может еще нам стоит что-то проверить?

Nataliya-Kusenkova
Сообщения: 468
Зарегистрирован: Сб апр 02, 2016 5:42 pm
Контактная информация:

Сообщение: #17145 Nataliya-Kusenkova
Ср апр 27, 2016 7:43 pm

Добрый день! Рада за котика! Каких то показаний по анализам крови к гептралу я не увидела. Возможно после узи будет понятнее -насколько он там необходим...

loginza1iiaQgakGL0ilUFYaNhUum
Сообщения: 93
Зарегистрирован: Сб апр 02, 2016 5:43 pm
Контактная информация:

Сообщение: #17146 loginza1iiaQgakGL0ilUFYaNhUum
Ср апр 27, 2016 7:43 pm

Спасибо за ответ)
Глюкозу просто продолжать измерять дома?
Не нравятся такие показатели 1.9-2.3 может быть это симптомом другого заболевания?

Nataliya-Kusenkova
Сообщения: 468
Зарегистрирован: Сб апр 02, 2016 5:42 pm
Контактная информация:

Сообщение: #17147 Nataliya-Kusenkova
Ср апр 27, 2016 7:43 pm

когда отменили инсулин?


Nataliya-Kusenkova
Сообщения: 468
Зарегистрирован: Сб апр 02, 2016 5:42 pm
Контактная информация:

Сообщение: #17149 Nataliya-Kusenkova
Ср апр 27, 2016 7:43 pm

тогда все в порядке - не стоит беспокойства, позднее обычно глюкоза устанавливается в более высоком диапазоне. тем более человеческие глюкометры - занижают у животных уровень глюкозы в низких диапазонах.. Если бы измеряли на 1,9 - ветеринарным глюкозметром - это было бы от 2, 6 ммоль/л...


Вернуться в «Вопросы ветеринарному врачу-эндокринологу»

Кто сейчас на конференции

Сейчас этот форум просматривают: Bing [Bot] и 0 гостей